Stampa
Categoria: Blues-Bossa-Jazz
Visite: 104

Tears In Heaven

Album: Rush - 1992

Testo

Would you know my name? If I saw you in heaven
Would it be the same? If I saw you in heaven
I must be strong And carry on
'Cause I know I don't belong Here in heaven
 
Would you hold my hand? If I saw you in heaven
Would you help me stand? If I saw you in heaven
I'll find my way Through night and day
'Cause I know I just can't stay Here in heaven
 
Time can bring you down
Time can bend your knees
Time can break your heart
Have you begging please
Begging please
 
Beyond the door, There's peace, I'm sure
And I know there'll be no more Tears in heaven
 
Would you know my name? If I saw you in heaven
Would you be the same? If I saw you in heaven
I must be strong And carry on
'Cause I know I don't belong
Here in heaven
 
 

Accordi (altra fonte)

Tears In Heaven chords
Eric Clapton 1992 (Eric Clapton & Will Jennings)  live version
 
Capo II
 
[Intro]
 
G D Em
C G  D
 
[Chorus]
 
G         D       Em
Would you know my name, 
C    G          D
if I saw you in heaven? 
G       D      Em
Will it be the same, 
C    G          D
if I saw you in heaven?
 
[Verse]
 
Em        Bm    Dm          E  E7
I must be strong, and carry on 
E       Am             D  D7
Cause I know I don't belong, 
D       G
here in heaven 
 
G D Em  C G  D
 
[Chorus]
 
G         D       Em
Would you hold my hand, 
C    G          D
if I saw you in heaven? 
G         D       Em
Would you help me stand, 
C    G          D
if I saw you in heaven? 
 
[Verse]
 
Em           Bm  Dm                 E  E7
I'll find my way, through night and day 
E       Am                D  D7
Cause I know I just can't stay, 
D       G
here in heaven 
 
G D Em  C G  D
 
Bb       F         Gm
Time can bring you down, 
         C         F     F C Dm C F
time can bend your knee 
Bb       F          Gm
Time can break your heart, 
         C       F     C
have you begging please 
        D
Begging please 
 
G D Em  C G D 2x
 
[Verse]
 
Em         Bm   Dm
Beyond the door, 
                  E
there's peace I'm sure. 
E7    Am                  D   D7
And I know there'll be no more, 
D        G
tears in heaven 
 
G D Em  C G  D
 
[Chorus]
 
G         D       Em
Would you know my name, 
C    G          D
if I saw you in heaven? 
G       D      Em
Will it be the same, 
C    G          D
if I saw you in heaven? 
Em        Bm    Dm          E  E7
I must be strong, and carry on 
E       Am             D7
Cause I know I don't belong, 
D       G
here in heaven.
 
[Outro]
 
E       Am             D7
Cause I know I don't belong, 
D       G
here in heaven 
 
G D Em  C  G
 

Altre versioni

 

 

 

 

 

Video Tutorial

 

Esecuzione su intavolatura a video (vedi TAB sotto)

 

 

Intavolutura per chitarra (TAB)

Tears In Heaven tab by Eric Clapton

TAB del Video tutorial: https://www.youtube.com/watch?v=XdPE58PFNmk&t=624s

e|-----------------------|-----------------------------|
B|-----------------------|--------2h3p2----5-----5--2--|
G|-----------------------|-----2--------2--4-----4--2--|
D|-----------------------|-----------------------------|
A|-----------------------|--0--------------------------|
E|-------------------0h2-|-----------------4--4-----2--|

      F#m      A/E            D/F#           E7    
e|-------------------------|-------------------------|
B|-------2-----2-----2-----|--3-----3-----3-----3----|
G|-------2-----2-----2-----|--2-----2-----2-----1----|
D|-------------------------|-------------------------|
A|-------------------------|-------------------------|
E|----2-----2--0--0-----0--|--2--2-----2--0--0--0----|



    A                           A              E/G#  F#m 
e|---------------------------|---------------------------|
B|--2-----2-----2-----2------|--------2h3p2----5------2--|
G|--2-----2-----2-----2------|-----2--------2--4------2--|
D|---------------------------|---------------------------|
A|--0--0-----0--0--0--0------|--0------------------------|
E|-----------------------0h2-|-----------------4------2--|

Prima parte-Parte 1 di 4

    A                    E/G#     F#m 
e|--------------------------------------|
B|--------------2h3p2----5-----5--2-----|
G|-----------2--------2--4--------2-----|
D|--------------------------------------|
A|--------0-----------------------------|
E|--0h2------------------4--4-----2--2--|


Prima parte-Parte 2 di 4

    F#m 
e|--5/7--5-----------0--|
B|--5/7--5-5/7\5--2-----|
G|---------4/6\4--2-----|
D|----------------------|
A|----------------------|
E|---------0------------|


Prima parte-Parte 3 di 4

    F#m 
e|-----------------0----------------------|
B|--3----3-----2h3-----0----0-----2----3--|
G|--2----2-----2-------1----1-----2----4--|
D|----------------------------------------|
A|----------------------------------------|
E|--2--2----2--0-------0--0----0--0--0----|

Prima parte-Parte 1 di 4 (ripete)

    A                    E/G#     F#m 
e|--------------------------------------|
B|--------------2h3p2----5-----5--2-----|
G|-----------2--------2--4--------2-----|
D|--------------------------------------|
A|--------0-----------------------------|
E|--0h2------------------4--4-----2--2--|

Prima parte-Parte 4 di 4

    F#m 
e|--2--4-4/5-4-2-0--|
B|------------------|
G|--2--4-4/6-4-2-1--|
D|------------------|
A|------------------|
E|-------0----------|

Prima parte-Parte 3 di 4 (ripete)

    F#m 
e|-----------------0----------------------|
B|--3----3-----2h3-----0----0-----2----3--|
G|--2----2-----2-------1----1-----2----4--|
D|----------------------------------------|
A|----------------------------------------|
E|--2--2----2--0-------0--0----0--0--0----|

Seconda Parte- Parte 1 di 3

    F#m                  Db/F              
e|--------2--------2-----------3----------1-----|
B|--2-----2-----2--2-----2-----2-----2----2-----|
G|--2-----2-----2--2-----1-----1-----1----1-----|
D|----------------------------------------------|
A|----------------------------------------------|
E|--2--2-----2--2-----2--1--1-----1--1--1----1--|

Seconda Parte- Parte 2 di 3

    A7/E                 F#7              
e|--------0--------0-----------------------------|
B|--2-----2-----2--2-----------------------2-----|
G|--0-----0-----0--0-----3-----3----4------------|
D|-----------------------2-----2-----------------|
A|-----------------------------------------------|
E|--0--0-----0--0-----0--2--2-----2-----2-----2--|

Seconda Parte- Parte 3 di 3

    Bm7                 E7(4)              
e|-----------------------------------|
B|-------3-----3-----3----3--3----3--|
G|-------2-----2-----2----2--2----2--|
D|-----------------------------------|
A|--2--2----2--2--2------------------|
E|----------------------0-------0----|


Introduzione (variazione) - Parte 1 di 4

                           A               E/G#     F#m
e|-----------------------|--------------------------------|
B|-----------------------|--------2h3p2----5-----5--2-----|
G|-----------------------|-----2--------2--4--------2-----|
D|-----------------------|--------------------------------|
A|-----------------------|--0-----------------------------|
E|-------------------0h2-|-----------------4--4-----2--2--|


Introduzione (variazione)-Parte 2 di 4

    F#m 
e|--5/7--5-----------0--|
B|--5/7--5-5/7\5--2-----|
G|---------4/6\4--2-----|
D|----------------------|
A|----------------------|
E|---------0------------|

Introduzione (variazione)-Parte 3 di 4 (18:30)

    D/F#       E7(4) E7
e|-------------------------|
B|--3----3-----3-----3-----|
G|--2----2-----2-----1-----|
D|-------------------------|
A|-------------------------|
E|--2--2----2--0--0-----0--|

Introduzione (variazione)-Parte 4 di 4 (18:36)

    A
e|---------------------------------------|
B|--2----2-------------2h3p2-------------|
G|--2----2--------2h4---------4p2--------|
D|-----------2h4-------------------4--2--|
A|--0--0---------------------------------|
E|---------------------------------------|


Terza Parte-Parte 1 di 3 (21:12)

          C          G/B       Am7         D/F#
e|-------------0----------3----------0----------------|
B|-------------1----------3----------1---------3------|
G|----------0-----0-----0----0----2-----2------2------|
D|-------------------------------------------0-----0--|
A|--0--2--3-------3--2-------2--0-------0-------------|
E|-----------------------------------------2-------2--|

Terza Parte-Parte 2 di 3 (21:27)

    G          D/F#         Em7         D/F#    G
e|-------------------------------------------------|
B|--3-----3-----3-----3-----3----3------3-------3--|
G|--4-----4-----2-----2-----0----0------2-------4--|
D|-------------------------------------------------|
A|-------------------------------------------------|
E|--3--3-----3--2--2-----2--0--0-----0--2---2---3--|


Terza Parte-Parte 1 di 3 (21:37) RIPETE

          C          G/B       Am7         D/F#
e|-------------0----------3----------0----------------|
B|-------------1----------3----------1---------3------|
G|----------0-----0-----0----0----2-----2------2------|
D|-------------------------------------------0-----0--|
A|--------3-------3--2-------2--0-------0-------------|
E|-----------------------------------------2-------2--|

Terza Parte-Parte 3 di 3 (21:43) 
         
    G          D/F#         E        
e|--------------------------------------------------|
B|--3-----3-----3-----3-----------------------------|
G|--4-----4-----2-----2---------1-------2--------4--|
D|--------------------------------------------------|
A|----------------------------2-----2/4-----4/5-----|
E|--3--3-----3--2--2-----2--0-----------------------|

***********************************************************
SOLO (25:14) (due volte)
           
e|--9h10p9------12/14--12--9--------10--9\7--5--7/9--7--7--|
B|----------10---------------------------------------------|
G|----------------------------9/11------9\7--6--7/9--7--7--|
D|---------------------------------------------------------|
A|---------------------------------------------------------|
E|---------------------------------------------------------|

Ripete uguale

**********************************************************
Finale- Parte 1 di 5 (27:20)


         A               E/G#     F#m         A/E
e|--------------------------------------------------------|
B|--------------2h3p2----5-----5--2-----2-----2-----2-----|
G|-----------2--------2--4--------2-----2-----2-----2-----|
D|--------------------------------------------------------|
A|--------0-----------------------------------------------|
E|--0h2------------------4--4-----2--2-----2--0--0-----0--|


Finale - Parte 2 di 5 (27:40 uguale a Seconda Parte- Parte 3 di 3)

    Bm7                 E7(4)              
e|-----------------------------------|
B|-------3-----3-----3----3--3----3--|
G|-------2-----2-----2----2--2----2--|
D|-----------------------------------|
A|--2--2----2--2--2------------------|
E|----------------------0-------0----|


Finale- Parte 3 di 5 (27:50)


         A               E/G#     F#m         
e|--------------------------------------|
B|--------------2h3p2----5-----5--2-----|
G|-----------2--------2--4--------2-----|
D|--------------------------------------|
A|--------0-----------------------------|
E|--0h2------------------4--4-----2--2--|


    
e|--5/7--5-----------0--|
B|--5/7--5-5/7\5--2-----|
G|---------4/6\4--2-----|
D|----------------------|
A|----------------------|
E|---------0------------|

Finale-Parte 4 di 5 (27:58)

    D/F#       E7(4) E7
e|-------------------------|
B|--3----3-----3-----3-----|
G|--2----2-----2-----1-----|
D|-------------------------|
A|-------------------------|
E|--2--2----2--0--0-----0--|

Finale- Parte 5 di 5 (28:06)


         A               E/G#     F#m         
e|--------------------------------------|
B|-----------2--3---2h3p2------------5--|
G|--------2----------------4--2--4/6----|
D|-----2--------------------------------|
A|--0-----------------------------------|
E|--------------------------------------|



***********************************

| h   hammer-on
| p   pull-off

***********************************

 

 Downloads