Stampa
Categoria: Pino Daniele
Visite: 67

Viento

Album: Pino Daniele (1979)

Testo

Viento scioscia stanotte
trase pe' sotta e fatte sentì'
viento viento
viento nce resta pe'nce 'ncazzà'
Viento
trase dint'e piazze
rump'e fenestre
e nun te fermà '
Viento viento
puorteme 'e voci
' chi vo' alluccà'.

 

Accordi e Tablatura

Viento-Pino Daniele/Pino Daniele (1979)
Trascrizione di Daniel Mennella. Revisione V. Maida

Tempo 3/4 (126 bpm) 
 
INTRO
  Dm6                 Am                Dm6                 Am                 
|-7~ ---8----10----|--8-u7--5---------|-7~ ---8----10----|--8-u7--5-----|
|-6~ --------------|------------------|-6~ --------------|--------------|
|-7~ --------------|------------------|-7~ --------------|--------------|
|-0~ --------------|------------------|-0~ --------------|--------------|
|------------------|--0----------0----|------------------|--0--------0--|
|------------------|------------------|------------------|--------------|
 
 
  Bb          Am Gm     F                E 
|----1--0------------|----------------|-----------------|
|-3~ ------3--1------|----------------|-----------------|
|-3~ ------------3---|--2--------2----|--1~ -------1----|
|-3~ ----------------|----------------|--2~ ------------|
|-1~ ---------0------|----------------|--2~ ------------|
|----------------3---|--1-------------|--0~ ---(0)------|
 
 
PONTE dopo INTRO e dopo ogni VERSO
 
                                    |----This takes two measures-----|
  Am                 Bm7              Dm7     Dbm7    Cm7    Bm7
|-------------0--3s|-5----u2--------|--------------------------------|
|----------1-------|-3~ -------3----|-6-p8u6--5-p7u5--4-p6u4--3-p5u3-|
|-------2----------|-2~ ------------|-5-------4-------3-------2------|
|----2-------------|----------------|--------------------------------|
|-0----------------|-2~ ------------|-5-------4-------3-------2------|
|------------------|----------------|--------------------------------|
 
 
 
                  |-------    Suona 2 volte    ---------|
  Am         Bb      Dm/A              Am 
|-----------------|:------1----------|------0----------:|
|-1-u0-------3~ --|:----3------------|----1------------:|
|-------2----3~ --|:-----------------|-----------------:|
|------------3~ --|:-----------------|-----------------:|
|-0----------1~ --|:-0---------------|-0---------------:|
|-----------------|:------------0----|------------0----:|
 
VERSO
 Dm/A               Am               Bb               Am 
|------1----------|------0----------|------1----0----|---------------|
|----3------------|----1------------|-3~ ------------|-1~ ------1----|
|-----------------|-----------------|-3~ ------------|-2~ -----------|
|-----------------|-----------------|-3~ ------------|-----2---------|
|-0---------------|-0---------------|-1~ ------------|-0~ -----------|
|------------0----|------------0----|----------------|---------------|
  Vien-             to                susce            stanotte

                                                    |Rip.2v-D 1v.-A 2v.|
  E                Am	           A7/D	             Dm7 
|----------------|----------------|-3~ ---1----0----|-----5~ ---5----|
|-0~ --3----1----|------0----1----|-2~ -------------|-----6~ ---6----|
|-1~ ------------|-2--------------|-2~ -------------|-----5~ ---5----|
|-2~ ------------|-2--------------|-0~ -------------|----------------|
|----------------|-0--------------|-----------------|-5--------------|
|-0~ ------------|----------------|-----------------|(5)-------------|
  trase    pe'     sotta     e      fatte        senti'
 
|Rip.2v-Bb 1v.-F 2v.|Rip.2v.-A 1v.-E 2v.|
   Bb                 Am                  Dm               Am 
|-------------------|-------------------|-1~ --0----1----|-0-------------|
|-3--3--3--3--3--3--|-1--1--1--1--1--1--|-3~ ------------|-----1---------|
|-3--3--3--3--3--3--|-2--2--2--2--2--2--|-2~ ------------|----------2----|
|-3--3--3--3--3--3--|-2--2--2--2--2--2--|-0~ ------------|---------------|
|-1-----------------|-0-----------------|----------------|-0-------------|
|(1)----------------|(0)----------------|----------------|---------------|
 Viento               Viento               viento   nce    resta

  Bb        E                                              Asus2
|----------------|                                       |-0~ -----------|
|-3~ ------------|                                       |-0~ -----------|
|-3~ --2----1----|                                       |-2~ -----------|
|-3~ -------2----| ===>PONTE===>VERSO 2===>PONTE(*)==>   |-2~ -----------|
|-1~ -------2----| (*)=senza ultime due battute          |-0~ -----------|
|-----------0----|                                       |---------------|
 pe'nce    'ncazza'

Altri versioni

Pino Daniele - Viento (remake 1991)

 

Pino Daniele - Viento (live 2001)

 

Pino Daniele - Viento (remake 2008)

 

Pino Daniele, Viento (arrangiamento di Marco Sannini)

 

 

Ghita Casadei • Viento [Pino Daniele Cover]

 

Video Tutorial

Viento - Pino Daniele [Guitar tabs]

 

Viento (cover Pino Daniele) guitar lesson

 

Viento_Pino Daniele_Guitar Lesson

 

"Viento" Pino Daniele - chitarra tutorial

 

Altri video tutorial/cover: #1 - #2- #3 

  

Downloads